Ejercicios de guitarra avanzados

Llega un momento en el que, como guitarristas, deseamos comenzar a destacarnos. Es cierto, llegar a lograr un estilo personal puede tener como base las aptitudes personales innatas de cada persona, pero también es fruto de un trabajo continuo y ordenado. Para ayudar a nuestros lectores a lograrlo, aquí presento algunos consejos para que puedan ampliar sus horizontes musicales y llegar a dominar todo el mástil de la guitarra, más allá de los 4 ó 5 trastes implicados en cada escala.

Luego de conocer las escalas muy bien y tocarlas sin errores incluso al improvisar, y dado que hay escalas a lo largo de todo el mástil, la cuestión es comenzar a combinarlas unas con otras para enriquecer nuestras composiciones, ya sean improvisadas o no. Por supuesto, uno siempre puede correr la escala de lugar, hacia el cuerpo o hacia el clavijero, y eso puede funcionar muy bien en principio, pero no es lo único ni lo mejor que se puede hacer para innovar. Pero si uno aprende cómo se conectan las escalas unas con otras nuestra música se enriquecerá mientras nos paseamos por el mástil. Primero lentamente y luego, ¡!a la velocidad de la luz!

Aquí presento un ejercicio típico pero muy útil, sobre la base de la escala menor natural iónica. La mano izquierda permanece algo estática, sólo desplazándose por el mástil hacia el cuerpo de l a guitarra hasta llegar al traste 12.

E-----------------------------5-
B-----------------------5-6-8---
G-----------------4-5-7---------
D-------------5-7---------------
A-------5-7-8-------------------
E-5-7-8-------------------------
1 3 4 1 3 4 1 3 1 2 4 1 2 4 1

Y la que sigue es una manera fácil de hacer lo que antes comentaba: Ampliar un poco los horizontes musicales por medio de distribuir las cosas, de modo de tocar tres notas por cuerda. No sólo el movimiento se vuelve más lateral, sino que la digitación es mejor o, al menos, algo más lógica.:

E--------------------------------
B-------------------------6-8-10-
G-------------------5-7-9--------
D-------------5-7-9--------------
A-------5-7-8--------------------
E-5-7-8--------------------------
1 3 4 1 3 4 1 2 4 1 2 4 1 2 4

Por ultimo, si uno desea combinar la práctica de estos movimientos y desplazamientos de la mano con el tocar e improvisar realmente sobre una pista, muchísimo mejor. Es bueno lograrlo al deslizar un dedo entre dos trastes distintos (lo que se conoce como “glissando”), porque esto otorga al pasaje un sonido levemente diferente al que se obtiene si lo realizamos utilizando dos dedos diferentes. Este deslizamiento puede realizarse en cualquier momento y mucos guitarristas lo usan para dar una nueva orientación a su mano izquierda, y lo hacen poniendo en práctica los principios de redistribución de los dedos, también. Esto crea patrones de escalas increíbles como el que muestro en este ejercicio de tres octavas y media, a continuación:

E-------------------------------------------------------15s17-19-20-
B-------------------------------------------13s15-17-18-------------
G-------------------------------10-12-14s16-------------------------
D--------------------9-10-12s14-------------------------------------
A----------7-8-10s12------------------------------------------------
E-5s7-8-10----------------------------------------------------------
1s1 2 4 1 2 4 s4 1 2 4s 4 1 2 4s 4 1s 1 2 3 1s 1 2 3

No olvides practicarlos en forma descendente también y con un poco de dedicación, estos ejercicios avanzados brindarán una bocanada de aire fresco a tu manera habitual de tocar la guitarra.

blog comments powered by Disqus

Recomendados