Arpegios alternados

Aquí les dejo una lección sencilla pero muy útil sobre los arpegios alternados en guitarra.

Como recordarás, un arpegio es una sucesión de notas que pertenecen a un acorde, pero que se tocan de manera consecutiva en lugar de tocarse simultáneamente. Así, un arpegio mayor se forma utilizando la misma fórmula, es decir, las mismas notas que ese mismo acorde mayor.

¿Qué quise decir con la palabra “fórmula”? Se llama así a utilizar los intervalos 1º, 3º y 5º de la escala mayor. Como pienso que todo esto va a quedarte más claro con algunos ejemplos, presento la tablatura de un arpegio alternado en la escala de LA mayor:

Escala de LA Mayor F ó rmula del Arpegio

e :---------------------------------------------------------------------------
B :---------------------------------------------------------------------------
G :---------------------------------------------------------------------------
D :--------------------------------------4----6------7------------------------
A :-------------------4----5----7----------------------------------4----7-----
E :---------5---7-----------------------------------------------5-------------
Notas LA SI DO # RE MI FA# SOL# LA LA DO # MI Intervalos 1 2 3 4 5 6 7 8 1 3 5

Tal como mencioné más arriba, hay muchas figuras de arpegios o “fórmulas”. Por ejemplo, esta es una fórmula de un arpegio en LA mayor:

Ejemplo 1)  

e :-------------------------------5-------------------------------------------
B :--------------------2-----5-------5----2-----------------------------------
G :--------------2-------------------------------2----------------------------
D :----------2----------------------------------------2-----------------------
A :----4----------------------------------------------------4-----------------
E :-5-------------------------------------------------------------5-----------
LA DO # MI LA DO # MI LA MI DO # LA MI DO # LA 

Y esta es una de mis formas favoritas para tocar arpegios en escalas mayores y menores. Para complicar un poco las cosas y ganar todavía más práctica es una buena idea tocarlo con “hammer on”s y “pull-off”s. Y si se apaga un poco el sonido con la mano luego de tocar cada nota con la púa, mucho mejor. Lo que se recomienda es hacerlo cuando la púa está dando los golpes hacia abajo.

Primero, no olvides comenzar a practicar esto bien lentamente y procurando que suene bien cada nota. Una vez que hayas ganado el control total de este ejercicio, será momento de ir aumentando la velocidad paulatinamente. Aquí va otro arpegio con ala misma técnica:

 

h h p
e :-------------5-9-5------------------------------------
B :-----------5-------5----------------------------------
G :---------6-----------6--------------------------------
D :-------7---------------7------------------------------
A :-----7-------------------7----------------------------
E :-5-9-----------------------9--5-----------------------  

 

Los arpegios en tonalidades menores también me gustan mucho, porque brindan cierto aire de melancolía y clasicismo que me encanta. Un arpegio menor utiliza los intervalos 1º, 3º y 5º según la fórmula que muestro debajo:  

 

Fórmula de Arpegio en LA Menor Patrón básico 1)  

 

e :-----------------------------------------5--------------
B :---------------------------------------5---5------------
G :----------------------------------2--5-------5-2--------
D :--------------------------------2----------------2------
A :------3--------7--------------3--------------------3----
E :--5-------------------------5------------------------5--
A C E A C E A C E A E C A E C A 1 b3 5  

 

Otra muy buena posibilidad: (La que yo prefiero...)  

 

h h p
e :--------------5--8--5----------------------------------
B :------------5----------5-------------------------------
G :---------5----------------5----------------------------
D :-------7---------------------7-------------------------
A :-----7--------------------------7----------------------
E :-5-8-------------------------------8--5----------------  

 

Espero que disfrutes de la práctica de estos arpegios alternados y que tu música se enriquezca día a día.

blog comments powered by Disqus

Recomendados